ISO-10303-21;
HEADER;
FILE_DESCRIPTION (( 'STEP AP203' ),
    '1' );
FILE_NAME ('QB-CTZHWP-38.1-780-M.STEP',
    '2020-12-24T01:37:34',
    ( '' ),
    ( '' ),
    'SwSTEP 2.0',
    'SolidWorks 2020',
    '' );
FILE_SCHEMA (( 'CONFIG_CONTROL_DESIGN' ));
ENDSEC;

DATA;
#1 = MANIFOLD_SOLID_BREP ( 'Ðý×', #63 ) ;
#2 = DIRECTION ( 'NONE',  ( 0.000000000000000000, 0.000000000000000000, 1.000000000000000000 ) ) ;
#3 = SHAPE_DEFINITION_REPRESENTATION ( #158, #82 ) ;
#4 = DATE_TIME_ROLE ( 'creation_date' ) ;
#5 = DIRECTION ( 'NONE',  ( 0.000000000000000000, 0.000000000000000000, 1.000000000000000000 ) ) ;
#6 = DATE_AND_TIME ( #128, #156 ) ;
#7 = VERTEX_POINT ( 'NONE', #144 ) ;
#8 = ORIENTED_EDGE ( 'NONE', *, *, #71, .T. ) ;
#9 = AXIS2_PLACEMENT_3D ( 'NONE', #58, #174, #111 ) ;
#10 = CARTESIAN_POINT ( 'NONE',  ( -3.000000000000000000, 0.000000000000000000, 0.000000000000000000 ) ) ;
#11 = PLANE ( 'NONE',  #9 ) ;
#12 = APPLICATION_CONTEXT ( 'configuration controlled 3d designs of mechanical parts and assemblies' ) ;
#13 = EDGE_CURVE ( 'NONE', #170, #7, #80, .T. ) ;
#14 = VECTOR ( 'NONE', #95, 1000.000000000000000 ) ;
#15 = DIRECTION ( 'NONE',  ( -1.000000000000000000, -0.000000000000000000, -0.000000000000000000 ) ) ;
#16 = PERSON_AND_ORGANIZATION ( #97, #51 ) ;
#17 = DIRECTION ( 'NONE',  ( -1.000000000000000000, -0.000000000000000000, -0.000000000000000000 ) ) ;
#18 = CARTESIAN_POINT ( 'NONE',  ( 3.000000000000000000, 0.000000000000000000, 0.000000000000000000 ) ) ;
#19 = CARTESIAN_POINT ( 'NONE',  ( -1.614212418857619014, 0.000000000000000000, 0.000000000000000000 ) ) ;
#20 = AXIS2_PLACEMENT_3D ( 'NONE', #120, #138, #74 ) ;
#21 = ADVANCED_FACE ( 'NONE', ( #127 ), #11, .F. ) ;
#22 = AXIS2_PLACEMENT_3D ( 'NONE', #19, #68, #132 ) ;
#23 = AXIS2_PLACEMENT_3D ( 'NONE', #41, #157, #28 ) ;
#24 =( NAMED_UNIT ( * ) SI_UNIT ( $, .STERADIAN. ) SOLID_ANGLE_UNIT ( ) );
#25 = CC_DESIGN_SECURITY_CLASSIFICATION ( #44, ( #102 ) ) ;
#26 = CALENDAR_DATE ( 2020, 24, 12 ) ;
#27 = EDGE_LOOP ( 'NONE', ( #30, #173, #69, #129 ) ) ;
#28 = DIRECTION ( 'NONE',  ( 0.000000000000000000, 0.000000000000000000, 1.000000000000000000 ) ) ;
#29 = APPROVAL_DATE_TIME ( #108, #98 ) ;
#30 = ORIENTED_EDGE ( 'NONE', *, *, #167, .T. ) ;
#31 = ORIENTED_EDGE ( 'NONE', *, *, #146, .T. ) ;
#32 = EDGE_CURVE ( 'NONE', #93, #7, #143, .T. ) ;
#33 = VERTEX_POINT ( 'NONE', #77 ) ;
#34 = PRODUCT_DEFINITION ( 'UNKNOWN', '', #102, #162 ) ;
#35 = CYLINDRICAL_SURFACE ( 'NONE', #54, 25.39999999999999858 ) ;
#36 = DATE_AND_TIME ( #26, #75 ) ;
#37 = PERSON_AND_ORGANIZATION_ROLE ( 'design_owner' ) ;
#38 = DATE_TIME_ROLE ( 'classification_date' ) ;
#39 = DIRECTION ( 'NONE',  ( 1.000000000000000000, 0.000000000000000000, 0.000000000000000000 ) ) ;
#40 = ORIENTED_EDGE ( 'NONE', *, *, #146, .F. ) ;
#41 = CARTESIAN_POINT ( 'NONE',  ( -3.000000000000000000, 0.000000000000000000, 0.000000000000000000 ) ) ;
#42 = APPROVAL_PERSON_ORGANIZATION ( #16, #70, #87 ) ;
#43 = PERSON_AND_ORGANIZATION_ROLE ( 'creator' ) ;
#44 = SECURITY_CLASSIFICATION ( '', '', #105 ) ;
#45 = CARTESIAN_POINT ( 'NONE',  ( -3.000000000000000000, 0.000000000000000000, 25.39999999999999858 ) ) ;
#46 = PRODUCT_RELATED_PRODUCT_CATEGORY ( 'detail', '', ( #100 ) ) ;
#47 = CIRCLE ( 'NONE', #175, 25.39999999999999858 ) ;
#48 = LOCAL_TIME ( 9, 37, 34.00000000000000000, #124 ) ;
#49 = CC_DESIGN_DATE_AND_TIME_ASSIGNMENT ( #6, #38, ( #44 ) ) ;
#50 = CARTESIAN_POINT ( 'NONE',  ( 3.000000000000000000, 0.000000000000000000, 0.000000000000000000 ) ) ;
#51 = ORGANIZATION ( 'UNSPECIFIED', 'UNSPECIFIED', '' ) ;
#52 = CARTESIAN_POINT ( 'NONE',  ( 0.000000000000000000, 0.000000000000000000, 0.000000000000000000 ) ) ;
#53 = APPROVAL_ROLE ( '' ) ;
#54 = AXIS2_PLACEMENT_3D ( 'NONE', #139, #17, #2 ) ;
#55 = CALENDAR_DATE ( 2020, 24, 12 ) ;
#56 = CARTESIAN_POINT ( 'NONE',  ( 3.000000000000000000, 3.110602869834276865E-15, -25.39999999999999858 ) ) ;
#57 = PERSON_AND_ORGANIZATION ( #97, #51 ) ;
#58 = CARTESIAN_POINT ( 'NONE',  ( -3.000000000000001332, 19.05000000000000071, 0.000000000000000000 ) ) ;
#59 = CARTESIAN_POINT ( 'NONE',  ( -1.614212418857619014, 3.110602869834276865E-15, -25.39999999999999858 ) ) ;
#60 = DIRECTION ( 'NONE',  ( -1.000000000000000000, -0.000000000000000000, -0.000000000000000000 ) ) ;
#61 = LINE ( 'NONE', #141, #131 ) ;
#62 = APPROVAL_PERSON_ORGANIZATION ( #165, #81, #104 ) ;
#63 = CLOSED_SHELL ( 'NONE', ( #88, #135, #164, #21 ) ) ;
#64 =( LENGTH_UNIT ( ) NAMED_UNIT ( * ) SI_UNIT ( .MILLI., .METRE. ) );
#65 = AXIS2_PLACEMENT_3D ( 'NONE', #52, #5, #39 ) ;
#66 = ORIENTED_EDGE ( 'NONE', *, *, #32, .T. ) ;
#67 = PERSON_AND_ORGANIZATION ( #97, #51 ) ;
#68 = DIRECTION ( 'NONE',  ( -1.000000000000000000, -0.000000000000000000, -0.000000000000000000 ) ) ;
#69 = ORIENTED_EDGE ( 'NONE', *, *, #32, .F. ) ;
#70 = APPROVAL ( #90, 'UNSPECIFIED' ) ;
#71 = EDGE_CURVE ( 'NONE', #33, #93, #61, .T. ) ;
#72 = COORDINATED_UNIVERSAL_TIME_OFFSET ( 8, 0, .AHEAD. ) ;
#73 = CC_DESIGN_PERSON_AND_ORGANIZATION_ASSIGNMENT ( #169, #126, ( #44 ) ) ;
#74 = DIRECTION ( 'NONE',  ( -0.000000000000000000, 0.000000000000000000, 1.000000000000000000 ) ) ;
#75 = LOCAL_TIME ( 9, 37, 34.00000000000000000, #148 ) ;
#76 = FACE_OUTER_BOUND ( 'NONE', #27, .T. ) ;
#77 = CARTESIAN_POINT ( 'NONE',  ( 3.000000000000000000, 0.000000000000000000, 25.39999999999999858 ) ) ;
#78 = AXIS2_PLACEMENT_3D ( 'NONE', #50, #15, #103 ) ;
#79 = ORIENTED_EDGE ( 'NONE', *, *, #114, .F. ) ;
#80 = LINE ( 'NONE', #59, #14 ) ;
#81 = APPROVAL ( #121, 'UNSPECIFIED' ) ;
#82 = ADVANCED_BREP_SHAPE_REPRESENTATION ( 'QB-CTZHWP-38.1-780-M', ( #1, #65 ), #86 ) ;
#83 = MECHANICAL_CONTEXT ( 'NONE', #99, 'mechanical' ) ;
#84 = PERSON_AND_ORGANIZATION ( #97, #51 ) ;
#85 = PLANE ( 'NONE',  #20 ) ;
#86 =( GEOMETRIC_REPRESENTATION_CONTEXT ( 3 ) GLOBAL_UNCERTAINTY_ASSIGNED_CONTEXT ( ( #118 ) ) GLOBAL_UNIT_ASSIGNED_CONTEXT ( ( #64, #168, #24 ) ) REPRESENTATION_CONTEXT ( 'NONE', 'WORKASPACE' ) );
#87 = APPROVAL_ROLE ( '' ) ;
#88 = ADVANCED_FACE ( 'NONE', ( #76 ), #116, .T. ) ;
#89 = DIRECTION ( 'NONE',  ( -1.000000000000000000, -0.000000000000000000, -0.000000000000000000 ) ) ;
#90 = APPROVAL_STATUS ( 'not_yet_approved' ) ;
#91 = EDGE_LOOP ( 'NONE', ( #66, #161 ) ) ;
#92 = CALENDAR_DATE ( 2020, 24, 12 ) ;
#93 = VERTEX_POINT ( 'NONE', #45 ) ;
#94 = CC_DESIGN_PERSON_AND_ORGANIZATION_ASSIGNMENT ( #84, #149, ( #34 ) ) ;
#95 = DIRECTION ( 'NONE',  ( -1.000000000000000000, -0.000000000000000000, -0.000000000000000000 ) ) ;
#96 = CC_DESIGN_PERSON_AND_ORGANIZATION_ASSIGNMENT ( #150, #37, ( #100 ) ) ;
#97 = PERSON ( 'UNSPECIFIED', 'UNSPECIFIED', 'UNSPECIFIED', ('UNSPECIFIED'), ('UNSPECIFIED'), ('UNSPECIFIED') ) ;
#98 = APPROVAL ( #140, 'UNSPECIFIED' ) ;
#99 = APPLICATION_CONTEXT ( 'configuration controlled 3d designs of mechanical parts and assemblies' ) ;
#100 = PRODUCT ( 'QB-CTZHWP-38.1-780-M', 'QB-CTZHWP-38.1-780-M', '', ( #83 ) ) ;
#101 = APPLICATION_PROTOCOL_DEFINITION ( 'international standard', 'config_control_design', 1994, #99 ) ;
#102 = PRODUCT_DEFINITION_FORMATION_WITH_SPECIFIED_SOURCE ( 'ANY', '', #100, .NOT_KNOWN. ) ;
#103 = DIRECTION ( 'NONE',  ( 0.000000000000000000, 0.000000000000000000, 1.000000000000000000 ) ) ;
#104 = APPROVAL_ROLE ( '' ) ;
#105 = SECURITY_CLASSIFICATION_LEVEL ( 'unclassified' ) ;
#106 = CIRCLE ( 'NONE', #160, 25.39999999999999858 ) ;
#107 = APPROVAL_DATE_TIME ( #36, #81 ) ;
#108 = DATE_AND_TIME ( #55, #48 ) ;
#109 = FACE_OUTER_BOUND ( 'NONE', #171, .T. ) ;
#110 = PERSON_AND_ORGANIZATION_ROLE ( 'design_supplier' ) ;
#111 = DIRECTION ( 'NONE',  ( 0.000000000000000000, 0.000000000000000000, -1.000000000000000000 ) ) ;
#112 = COORDINATED_UNIVERSAL_TIME_OFFSET ( 8, 0, .AHEAD. ) ;
#113 = CC_DESIGN_APPROVAL ( #81, ( #34 ) ) ;
#114 = EDGE_CURVE ( 'NONE', #7, #93, #47, .T. ) ;
#115 = DIRECTION ( 'NONE',  ( 0.000000000000000000, 0.000000000000000000, 1.000000000000000000 ) ) ;
#116 = CYLINDRICAL_SURFACE ( 'NONE', #22, 25.39999999999999858 ) ;
#117 = CC_DESIGN_PERSON_AND_ORGANIZATION_ASSIGNMENT ( #67, #110, ( #102 ) ) ;
#118 = UNCERTAINTY_MEASURE_WITH_UNIT (LENGTH_MEASURE( 1.000000000000000082E-05 ), #64, 'distance_accuracy_value', 'NONE');
#119 = CC_DESIGN_APPROVAL ( #70, ( #44 ) ) ;
#120 = CARTESIAN_POINT ( 'NONE',  ( 3.000000000000001332, 19.05000000000000071, 0.000000000000000000 ) ) ;
#121 = APPROVAL_STATUS ( 'not_yet_approved' ) ;
#122 = DATE_AND_TIME ( #92, #145 ) ;
#123 = DATE_AND_TIME ( #137, #151 ) ;
#124 = COORDINATED_UNIVERSAL_TIME_OFFSET ( 8, 0, .AHEAD. ) ;
#125 = APPLICATION_PROTOCOL_DEFINITION ( 'international standard', 'config_control_design', 1994, #12 ) ;
#126 = PERSON_AND_ORGANIZATION_ROLE ( 'classification_officer' ) ;
#127 = FACE_OUTER_BOUND ( 'NONE', #91, .T. ) ;
#128 = CALENDAR_DATE ( 2020, 24, 12 ) ;
#129 = ORIENTED_EDGE ( 'NONE', *, *, #71, .F. ) ;
#130 = APPROVAL_DATE_TIME ( #122, #70 ) ;
#131 = VECTOR ( 'NONE', #155, 1000.000000000000000 ) ;
#132 = DIRECTION ( 'NONE',  ( 0.000000000000000000, 0.000000000000000000, 1.000000000000000000 ) ) ;
#133 = ORIENTED_EDGE ( 'NONE', *, *, #167, .F. ) ;
#134 = APPROVAL_PERSON_ORGANIZATION ( #172, #98, #53 ) ;
#135 = ADVANCED_FACE ( 'NONE', ( #152 ), #85, .F. ) ;
#136 = CC_DESIGN_DATE_AND_TIME_ASSIGNMENT ( #123, #4, ( #34 ) ) ;
#137 = CALENDAR_DATE ( 2020, 24, 12 ) ;
#138 = DIRECTION ( 'NONE',  ( -1.000000000000000000, 0.000000000000000000, -0.000000000000000000 ) ) ;
#139 = CARTESIAN_POINT ( 'NONE',  ( -1.614212418857619014, 0.000000000000000000, 0.000000000000000000 ) ) ;
#140 = APPROVAL_STATUS ( 'not_yet_approved' ) ;
#141 = CARTESIAN_POINT ( 'NONE',  ( -1.614212418857619014, 0.000000000000000000, 25.39999999999999858 ) ) ;
#142 = EDGE_LOOP ( 'NONE', ( #133, #40 ) ) ;
#143 = CIRCLE ( 'NONE', #23, 25.39999999999999858 ) ;
#144 = CARTESIAN_POINT ( 'NONE',  ( -3.000000000000000000, 3.110602869834276865E-15, -25.39999999999999858 ) ) ;
#145 = LOCAL_TIME ( 9, 37, 34.00000000000000000, #112 ) ;
#146 = EDGE_CURVE ( 'NONE', #170, #33, #166, .T. ) ;
#147 = CC_DESIGN_PERSON_AND_ORGANIZATION_ASSIGNMENT ( #57, #43, ( #102 ) ) ;
#148 = COORDINATED_UNIVERSAL_TIME_OFFSET ( 8, 0, .AHEAD. ) ;
#149 = PERSON_AND_ORGANIZATION_ROLE ( 'creator' ) ;
#150 = PERSON_AND_ORGANIZATION ( #97, #51 ) ;
#151 = LOCAL_TIME ( 9, 37, 34.00000000000000000, #72 ) ;
#152 = FACE_OUTER_BOUND ( 'NONE', #142, .T. ) ;
#153 = DIRECTION ( 'NONE',  ( 0.000000000000000000, 0.000000000000000000, 1.000000000000000000 ) ) ;
#154 = COORDINATED_UNIVERSAL_TIME_OFFSET ( 8, 0, .AHEAD. ) ;
#155 = DIRECTION ( 'NONE',  ( -1.000000000000000000, -0.000000000000000000, -0.000000000000000000 ) ) ;
#156 = LOCAL_TIME ( 9, 37, 34.00000000000000000, #154 ) ;
#157 = DIRECTION ( 'NONE',  ( -1.000000000000000000, -0.000000000000000000, -0.000000000000000000 ) ) ;
#158 = PRODUCT_DEFINITION_SHAPE ( 'NONE', 'NONE',  #34 ) ;
#159 = ORIENTED_EDGE ( 'NONE', *, *, #13, .F. ) ;
#160 = AXIS2_PLACEMENT_3D ( 'NONE', #18, #89, #153 ) ;
#161 = ORIENTED_EDGE ( 'NONE', *, *, #114, .T. ) ;
#162 = DESIGN_CONTEXT ( 'detailed design', #12, 'design' ) ;
#163 = CC_DESIGN_APPROVAL ( #98, ( #102 ) ) ;
#164 = ADVANCED_FACE ( 'NONE', ( #109 ), #35, .T. ) ;
#165 = PERSON_AND_ORGANIZATION ( #97, #51 ) ;
#166 = CIRCLE ( 'NONE', #78, 25.39999999999999858 ) ;
#167 = EDGE_CURVE ( 'NONE', #33, #170, #106, .T. ) ;
#168 =( NAMED_UNIT ( * ) PLANE_ANGLE_UNIT ( ) SI_UNIT ( $, .RADIAN. ) );
#169 = PERSON_AND_ORGANIZATION ( #97, #51 ) ;
#170 = VERTEX_POINT ( 'NONE', #56 ) ;
#171 = EDGE_LOOP ( 'NONE', ( #159, #31, #8, #79 ) ) ;
#172 = PERSON_AND_ORGANIZATION ( #97, #51 ) ;
#173 = ORIENTED_EDGE ( 'NONE', *, *, #13, .T. ) ;
#174 = DIRECTION ( 'NONE',  ( 1.000000000000000000, 0.000000000000000000, 0.000000000000000000 ) ) ;
#175 = AXIS2_PLACEMENT_3D ( 'NONE', #10, #60, #115 ) ;
ENDSEC;
END-ISO-10303-21;
